Смотреть клип песни Дельфин — Звезда - 9. Звезда (Музыку написал Mewark) — с табами в хорошем качестве онлайн:

Текст песни
Дельфин — Звезда - 9. Звезда (Музыку написал Mewark) — с табами



9. Звезда (Музыку написал Mewark) — с табами


club2781214
Главная тема: 3|--3-|--3--|----|-----|
4|-1--|-1-1-|-2--|-2-2-|
5|----|-----|--4-|--4--|

(1) У края дня
Ночь упивалась тишиной
Птиц хороня
За серебристою листвой
Немая топь
Бессмертья солнечных ветров
Спускалась вновь
Росой на лепестки цветов
club2781214
Припев: 2|--0-0--|-0-0-0-|
3|-------|-------|
4|-------|-------|
5|-------|-------|
6|-4-4-4-|--4-4--|
Искра света

2|--0-0--|-0-0-0-|
3|-------|-------|
4|-2-2-2-|--2-2--|
Фейрверк
2|--0-0--|-0-0-0-|
3|-------|-------|
4|-------|-------|
5|-------|-------|
6|-4-4-4-|--4-4--|
Вспыхнул где то
2|--0-0--|-0-0---|
3|-------|----3--|
4|-2-2-2-|--2--2-|
И померк, сгорел
3|--3-|--3--|----|-----|
4|-1--|-1-1-|-2--|-2-2-|
5|----|-----|--4-|--4--|
Ярким огнем до тла
Успел кто-то сказать
Звезда

(2) Он был один
Устало ждал ее шагов
И бездна льдин
Его расширеных зрачков
Смотрела вверх
В лицо сверкающей луне
Он слышлал смех
И умирал на самом дне

Тема из припева без голоса

Она давно спала
В ней теплился рассвет
И таяла луна
И бледный дымный след
Поделитесь текстом:

По почте:
В блоге:
На форуме:

Исполнитель: Дельфин — Звезда
Название песни: 9. Звезда (Музыку написал Mewark) — с табами
Добавил: Пользователь Дельфин — Звезда

Перевод песни
Дельфин — Звезда - 9. Звезда (Музыку написал Mewark) — с табами



9. Звезда (Музыку написал Mewark) — с табами


club2781214
Main theme: 3|--3-|--3--|----|-----|
4|-1--|-1-1-|-2--|-2-2-|
5|----|-----|--4-|--4--|

(1) At the edge of the day
The night was drinking in silence
Birds burying
The silver leaves
Dumb swamp
Of immortality solar winds
Coming down again
Dew on the petals of the flowers
club2781214
Chorus: 2|--0-0--|-0-0-0-|
3|-------|-------|
4|-------|-------|
5|-------|-------|
6|-4-4-4-|--4-4--|
The spark of light

2|--0-0--|-0-0-0-|
3|-------|-------|
4|-2-2-2-|--2-2--|
Firework
2|--0-0--|-0-0-0-|
3|-------|-------|
4|-------|-------|
5|-------|-------|
6|-4-4-4-|--4-4--|
Flushed where the
2|--0-0--|-0-0---|
3|-------|----3--|
4|-2-2-2-|--2--2-|
And faded, burned
3|--3-|--3--|----|-----|
4|-1--|-1-1-|-2--|-2-2-|
5|----|-----|--4-|--4--|
Flame to the ground
Could someone tell
Star

(2) He was the one
Tired of waiting for her steps
And the deep ice
It расширеных pupils
Looking up
In the face shining moon
He слышлал laughter
And dying at the bottom of the

The theme from the chorus without a voice

She had slept
In her alive dawn
And melt the moon
And pale smoky trail
Поделитесь текстом:

По почте:
В блоге:
На форуме:

Исполнитель переведенной песни: Дельфин — Звезда
Название переведенной песни: 9. Звезда (Музыку написал Mewark) — с табами
Добавил: Пользователь Дельфин — Звезда